ISO-10303-21;
HEADER;
FILE_DESCRIPTION (( 'STEP AP203' ),
    '1' );
FILE_NAME ('Q-AZHWP-20-808-M.STEP',
    '2020-12-22T09:09:06',
    ( '' ),
    ( '' ),
    'SwSTEP 2.0',
    'SolidWorks 2020',
    '' );
FILE_SCHEMA (( 'CONFIG_CONTROL_DESIGN' ));
ENDSEC;

DATA;
#1 = DIRECTION ( 'NONE',  ( -1.000000000000000000, -0.000000000000000000, -0.000000000000000000 ) ) ;
#2 = AXIS2_PLACEMENT_3D ( 'NONE', #261, #158, #25 ) ;
#3 = AXIS2_PLACEMENT_3D ( 'NONE', #99, #153, #258 ) ;
#4 = FACE_OUTER_BOUND ( 'NONE', #167, .T. ) ;
#5 = PRODUCT_RELATED_PRODUCT_CATEGORY ( 'detail', '', ( #70 ) ) ;
#6 = DIRECTION ( 'NONE',  ( 0.000000000000000000, 0.000000000000000000, 1.000000000000000000 ) ) ;
#7 = CARTESIAN_POINT ( 'NONE',  ( -1.614212418857619014, 1.224646799147353256E-15, -10.00000000000000000 ) ) ;
#8 = DIRECTION ( 'NONE',  ( 0.000000000000000000, 0.000000000000000000, 1.000000000000000000 ) ) ;
#9 = DATE_AND_TIME ( #248, #24 ) ;
#10 = PERSON_AND_ORGANIZATION_ROLE ( 'design_owner' ) ;
#11 = VERTEX_POINT ( 'NONE', #234 ) ;
#12 = CC_DESIGN_APPROVAL ( #132, ( #161 ) ) ;
#13 = AXIS2_PLACEMENT_3D ( 'NONE', #104, #184, #103 ) ;
#14 = ORIENTED_EDGE ( 'NONE', *, *, #326, .T. ) ;
#15 = EDGE_LOOP ( 'NONE', ( #65, #17, #232, #300 ) ) ;
#16 = APPROVAL_STATUS ( 'not_yet_approved' ) ;
#17 = ORIENTED_EDGE ( 'NONE', *, *, #38, .T. ) ;
#18 = EDGE_CURVE ( 'NONE', #329, #254, #281, .T. ) ;
#19 = EDGE_LOOP ( 'NONE', ( #45, #203 ) ) ;
#20 = AXIS2_PLACEMENT_3D ( 'NONE', #239, #49, #335 ) ;
#21 = APPLICATION_CONTEXT ( 'configuration controlled 3d designs of mechanical parts and assemblies' ) ;
#22 = FACE_BOUND ( 'NONE', #148, .T. ) ;
#23 = CARTESIAN_POINT ( 'NONE',  ( -1.614212418857619014, 0.000000000000000000, 0.000000000000000000 ) ) ;
#24 = LOCAL_TIME ( 17, 9, 6.000000000000000000, #139 ) ;
#25 = DIRECTION ( 'NONE',  ( 0.000000000000000000, 0.000000000000000000, 1.000000000000000000 ) ) ;
#26 = EDGE_CURVE ( 'NONE', #63, #67, #178, .T. ) ;
#27 = CYLINDRICAL_SURFACE ( 'NONE', #94, 10.00000000000000000 ) ;
#28 = CARTESIAN_POINT ( 'NONE',  ( -1.614212418857619014, 0.000000000000000000, 0.000000000000000000 ) ) ;
#29 = AXIS2_PLACEMENT_3D ( 'NONE', #23, #237, #152 ) ;
#30 = DIRECTION ( 'NONE',  ( 0.000000000000000000, 0.000000000000000000, 1.000000000000000000 ) ) ;
#31 = DIRECTION ( 'NONE',  ( -1.000000000000000000, 0.000000000000000000, -0.000000000000000000 ) ) ;
#32 = LINE ( 'NONE', #193, #149 ) ;
#33 = CC_DESIGN_APPROVAL ( #122, ( #183 ) ) ;
#34 = CLOSED_SHELL ( 'NONE', ( #213, #125, #44, #233, #102, #270, #109, #238, #303, #189 ) ) ;
#35 = APPROVAL_ROLE ( '' ) ;
#36 = EDGE_CURVE ( 'NONE', #63, #195, #80, .T. ) ;
#37 = EDGE_LOOP ( 'NONE', ( #118, #229, #201, #93 ) ) ;
#38 = EDGE_CURVE ( 'NONE', #195, #11, #212, .T. ) ;
#39 =( NAMED_UNIT ( * ) PLANE_ANGLE_UNIT ( ) SI_UNIT ( $, .RADIAN. ) );
#40 = VERTEX_POINT ( 'NONE', #331 ) ;
#41 = APPROVAL ( #66, 'UNSPECIFIED' ) ;
#42 = DIRECTION ( 'NONE',  ( 0.000000000000000000, 0.000000000000000000, 1.000000000000000000 ) ) ;
#43 = ORIENTED_EDGE ( 'NONE', *, *, #192, .F. ) ;
#44 = ADVANCED_FACE ( 'NONE', ( #75 ), #282, .F. ) ;
#45 = ORIENTED_EDGE ( 'NONE', *, *, #227, .T. ) ;
#46 = LOCAL_TIME ( 17, 9, 6.000000000000000000, #174 ) ;
#47 = FACE_OUTER_BOUND ( 'NONE', #176, .T. ) ;
#48 = AXIS2_PLACEMENT_3D ( 'NONE', #312, #179, #157 ) ;
#49 = DIRECTION ( 'NONE',  ( 1.000000000000000000, 0.000000000000000000, 0.000000000000000000 ) ) ;
#50 = CARTESIAN_POINT ( 'NONE',  ( -1.614212418857619014, 0.000000000000000000, 0.000000000000000000 ) ) ;
#51 = EDGE_CURVE ( 'NONE', #274, #40, #252, .T. ) ;
#52 = DIRECTION ( 'NONE',  ( 0.000000000000000000, 0.000000000000000000, 1.000000000000000000 ) ) ;
#53 = CARTESIAN_POINT ( 'NONE',  ( -3.000000000000000000, 0.000000000000000000, 12.69999999999999929 ) ) ;
#54 = CARTESIAN_POINT ( 'NONE',  ( 2.500000000000000888, 0.000000000000000000, 0.000000000000000000 ) ) ;
#55 = CC_DESIGN_PERSON_AND_ORGANIZATION_ASSIGNMENT ( #120, #327, ( #161 ) ) ;
#56 = DIRECTION ( 'NONE',  ( -0.000000000000000000, 0.000000000000000000, 1.000000000000000000 ) ) ;
#57 = AXIS2_PLACEMENT_3D ( 'NONE', #265, #108, #319 ) ;
#58 = CARTESIAN_POINT ( 'NONE',  ( -3.000000000000000000, 0.000000000000000000, 0.000000000000000000 ) ) ;
#59 = CARTESIAN_POINT ( 'NONE',  ( 3.000000000000000000, 1.555301434917138433E-15, -12.69999999999999929 ) ) ;
#60 = DIRECTION ( 'NONE',  ( -1.000000000000000000, -0.000000000000000000, -0.000000000000000000 ) ) ;
#61 = CIRCLE ( 'NONE', #48, 12.69999999999999929 ) ;
#62 = APPROVAL_DATE_TIME ( #275, #122 ) ;
#63 = VERTEX_POINT ( 'NONE', #210 ) ;
#64 = PERSON_AND_ORGANIZATION_ROLE ( 'design_supplier' ) ;
#65 = ORIENTED_EDGE ( 'NONE', *, *, #36, .T. ) ;
#66 = APPROVAL_STATUS ( 'not_yet_approved' ) ;
#67 = VERTEX_POINT ( 'NONE', #53 ) ;
#68 = DATE_TIME_ROLE ( 'creation_date' ) ;
#69 = ORIENTED_EDGE ( 'NONE', *, *, #311, .F. ) ;
#70 = PRODUCT ( 'Q-AZHWP-20-808-M', 'Q-AZHWP-20-808-M', '', ( #200 ) ) ;
#71 = APPROVAL_STATUS ( 'not_yet_approved' ) ;
#72 = ORIENTED_EDGE ( 'NONE', *, *, #326, .F. ) ;
#73 = DIRECTION ( 'NONE',  ( -1.000000000000000000, -0.000000000000000000, -0.000000000000000000 ) ) ;
#74 = VECTOR ( 'NONE', #205, 1000.000000000000000 ) ;
#75 = FACE_OUTER_BOUND ( 'NONE', #37, .T. ) ;
#76 = ADVANCED_BREP_SHAPE_REPRESENTATION ( 'Q-AZHWP-20-808-M', ( #251, #150 ), #296 ) ;
#77 = CARTESIAN_POINT ( 'NONE',  ( -1.614212418857619014, 0.000000000000000000, 12.69999999999999929 ) ) ;
#78 = DIRECTION ( 'NONE',  ( 0.000000000000000000, 0.000000000000000000, 1.000000000000000000 ) ) ;
#79 = PLANE ( 'NONE',  #151 ) ;
#80 = CIRCLE ( 'NONE', #269, 12.69999999999999929 ) ;
#81 = CC_DESIGN_DATE_AND_TIME_ASSIGNMENT ( #194, #142, ( #161 ) ) ;
#82 = DIRECTION ( 'NONE',  ( -1.000000000000000000, -0.000000000000000000, -0.000000000000000000 ) ) ;
#83 = CYLINDRICAL_SURFACE ( 'NONE', #211, 12.69999999999999929 ) ;
#84 = DIRECTION ( 'NONE',  ( 0.000000000000000000, 0.000000000000000000, 1.000000000000000000 ) ) ;
#85 = DIRECTION ( 'NONE',  ( -1.000000000000000000, -0.000000000000000000, -0.000000000000000000 ) ) ;
#86 = EDGE_CURVE ( 'NONE', #11, #67, #61, .T. ) ;
#87 = CARTESIAN_POINT ( 'NONE',  ( -3.000000000000000444, 0.000000000000000000, 0.000000000000000000 ) ) ;
#88 = PERSON_AND_ORGANIZATION ( #127, #260 ) ;
#89 = ORIENTED_EDGE ( 'NONE', *, *, #173, .T. ) ;
#90 = LOCAL_TIME ( 17, 9, 6.000000000000000000, #253 ) ;
#91 = PERSON_AND_ORGANIZATION ( #127, #260 ) ;
#92 = ORIENTED_EDGE ( 'NONE', *, *, #86, .F. ) ;
#93 = ORIENTED_EDGE ( 'NONE', *, *, #263, .F. ) ;
#94 = AXIS2_PLACEMENT_3D ( 'NONE', #28, #289, #6 ) ;
#95 = COORDINATED_UNIVERSAL_TIME_OFFSET ( 8, 0, .AHEAD. ) ;
#96 = ORIENTED_EDGE ( 'NONE', *, *, #112, .F. ) ;
#97 = CALENDAR_DATE ( 2020, 22, 12 ) ;
#98 = ORIENTED_EDGE ( 'NONE', *, *, #209, .T. ) ;
#99 = CARTESIAN_POINT ( 'NONE',  ( -1.614212418857619014, 0.000000000000000000, 0.000000000000000000 ) ) ;
#100 = AXIS2_PLACEMENT_3D ( 'NONE', #160, #111, #292 ) ;
#101 = DIRECTION ( 'NONE',  ( 0.000000000000000000, 0.000000000000000000, -1.000000000000000000 ) ) ;
#102 = ADVANCED_FACE ( 'NONE', ( #47 ), #126, .F. ) ;
#103 = DIRECTION ( 'NONE',  ( 0.000000000000000000, 0.000000000000000000, 1.000000000000000000 ) ) ;
#104 = CARTESIAN_POINT ( 'NONE',  ( 2.999999999999999112, 0.000000000000000000, 0.000000000000000000 ) ) ;
#105 = CARTESIAN_POINT ( 'NONE',  ( 2.999999999999999112, 0.000000000000000000, 0.000000000000000000 ) ) ;
#106 = CIRCLE ( 'NONE', #286, 10.00000000000000000 ) ;
#107 = DIRECTION ( 'NONE',  ( -1.000000000000000000, 0.000000000000000000, -0.000000000000000000 ) ) ;
#108 = DIRECTION ( 'NONE',  ( 1.000000000000000000, 0.000000000000000000, 0.000000000000000000 ) ) ;
#109 = ADVANCED_FACE ( 'NONE', ( #22, #129 ), #79, .F. ) ;
#110 = CARTESIAN_POINT ( 'NONE',  ( 2.999999999999999112, 1.224646799147353256E-15, -10.00000000000000000 ) ) ;
#111 = DIRECTION ( 'NONE',  ( -1.000000000000000000, -0.000000000000000000, -0.000000000000000000 ) ) ;
#112 = EDGE_CURVE ( 'NONE', #274, #115, #208, .T. ) ;
#113 = CC_DESIGN_PERSON_AND_ORGANIZATION_ASSIGNMENT ( #202, #255, ( #183 ) ) ;
#114 = APPROVAL_DATE_TIME ( #146, #41 ) ;
#115 = VERTEX_POINT ( 'NONE', #155 ) ;
#116 = CIRCLE ( 'NONE', #313, 10.00000000000000000 ) ;
#117 =( NAMED_UNIT ( * ) SI_UNIT ( $, .STERADIAN. ) SOLID_ANGLE_UNIT ( ) );
#118 = ORIENTED_EDGE ( 'NONE', *, *, #18, .F. ) ;
#119 = ORIENTED_EDGE ( 'NONE', *, *, #219, .F. ) ;
#120 = PERSON_AND_ORGANIZATION ( #127, #260 ) ;
#121 = EDGE_LOOP ( 'NONE', ( #278, #256 ) ) ;
#122 = APPROVAL ( #16, 'UNSPECIFIED' ) ;
#123 = VECTOR ( 'NONE', #309, 1000.000000000000000 ) ;
#124 = CARTESIAN_POINT ( 'NONE',  ( -1.614212418857619014, 0.000000000000000000, 10.00000000000000000 ) ) ;
#125 = ADVANCED_FACE ( 'NONE', ( #259 ), #288, .F. ) ;
#126 = CYLINDRICAL_SURFACE ( 'NONE', #3, 10.00000000000000000 ) ;
#127 = PERSON ( 'UNSPECIFIED', 'UNSPECIFIED', 'UNSPECIFIED', ('UNSPECIFIED'), ('UNSPECIFIED'), ('UNSPECIFIED') ) ;
#128 = CC_DESIGN_SECURITY_CLASSIFICATION ( #161, ( #183 ) ) ;
#129 = FACE_OUTER_BOUND ( 'NONE', #19, .T. ) ;
#130 = DIRECTION ( 'NONE',  ( -1.000000000000000000, -0.000000000000000000, -0.000000000000000000 ) ) ;
#131 = DIRECTION ( 'NONE',  ( 0.000000000000000000, 0.000000000000000000, -1.000000000000000000 ) ) ;
#132 = APPROVAL ( #71, 'UNSPECIFIED' ) ;
#133 = CARTESIAN_POINT ( 'NONE',  ( 2.999999999999999112, 12.69999999999999929, 0.000000000000000000 ) ) ;
#134 = AXIS2_PLACEMENT_3D ( 'NONE', #181, #285, #52 ) ;
#135 = CARTESIAN_POINT ( 'NONE',  ( -1.614212418857619014, 0.000000000000000000, 0.000000000000000000 ) ) ;
#136 = LINE ( 'NONE', #165, #310 ) ;
#137 = PLANE ( 'NONE',  #230 ) ;
#138 = APPROVAL_PERSON_ORGANIZATION ( #299, #41, #141 ) ;
#139 = COORDINATED_UNIVERSAL_TIME_OFFSET ( 8, 0, .AHEAD. ) ;
#140 = CC_DESIGN_PERSON_AND_ORGANIZATION_ASSIGNMENT ( #226, #10, ( #70 ) ) ;
#141 = APPROVAL_ROLE ( '' ) ;
#142 = DATE_TIME_ROLE ( 'classification_date' ) ;
#143 = ORIENTED_EDGE ( 'NONE', *, *, #38, .F. ) ;
#144 = PERSON_AND_ORGANIZATION ( #127, #260 ) ;
#145 = ORIENTED_EDGE ( 'NONE', *, *, #51, .F. ) ;
#146 = DATE_AND_TIME ( #268, #333 ) ;
#147 = ORIENTED_EDGE ( 'NONE', *, *, #311, .T. ) ;
#148 = EDGE_LOOP ( 'NONE', ( #119, #69 ) ) ;
#149 = VECTOR ( 'NONE', #1, 1000.000000000000000 ) ;
#150 = AXIS2_PLACEMENT_3D ( 'NONE', #322, #42, #196 ) ;
#151 = AXIS2_PLACEMENT_3D ( 'NONE', #236, #332, #101 ) ;
#152 = DIRECTION ( 'NONE',  ( 0.000000000000000000, 0.000000000000000000, 1.000000000000000000 ) ) ;
#153 = DIRECTION ( 'NONE',  ( -1.000000000000000000, -0.000000000000000000, -0.000000000000000000 ) ) ;
#154 = AXIS2_PLACEMENT_3D ( 'NONE', #58, #60, #30 ) ;
#155 = CARTESIAN_POINT ( 'NONE',  ( -3.000000000000000444, 0.000000000000000000, 10.00000000000000000 ) ) ;
#156 = LOCAL_TIME ( 17, 9, 6.000000000000000000, #95 ) ;
#157 = DIRECTION ( 'NONE',  ( 0.000000000000000000, 0.000000000000000000, 1.000000000000000000 ) ) ;
#158 = DIRECTION ( 'NONE',  ( -1.000000000000000000, -0.000000000000000000, -0.000000000000000000 ) ) ;
#159 = DIRECTION ( 'NONE',  ( -1.000000000000000000, -0.000000000000000000, -0.000000000000000000 ) ) ;
#160 = CARTESIAN_POINT ( 'NONE',  ( -3.000000000000000444, 0.000000000000000000, 0.000000000000000000 ) ) ;
#161 = SECURITY_CLASSIFICATION ( '', '', #168 ) ;
#162 = CARTESIAN_POINT ( 'NONE',  ( -2.500000000000000444, 0.000000000000000000, 0.000000000000000000 ) ) ;
#163 = PLANE ( 'NONE',  #220 ) ;
#164 = CIRCLE ( 'NONE', #100, 10.00000000000000000 ) ;
#165 = CARTESIAN_POINT ( 'NONE',  ( -1.614212418857619014, 0.000000000000000000, 10.00000000000000000 ) ) ;
#166 = APPROVAL_DATE_TIME ( #9, #132 ) ;
#167 = EDGE_LOOP ( 'NONE', ( #72, #171, #325, #276 ) ) ;
#168 = SECURITY_CLASSIFICATION_LEVEL ( 'unclassified' ) ;
#169 = VERTEX_POINT ( 'NONE', #334 ) ;
#170 = APPROVAL_ROLE ( '' ) ;
#171 = ORIENTED_EDGE ( 'NONE', *, *, #320, .T. ) ;
#172 = APPROVAL_PERSON_ORGANIZATION ( #91, #122, #170 ) ;
#173 = EDGE_CURVE ( 'NONE', #195, #63, #207, .T. ) ;
#174 = COORDINATED_UNIVERSAL_TIME_OFFSET ( 8, 0, .AHEAD. ) ;
#175 = ORIENTED_EDGE ( 'NONE', *, *, #26, .T. ) ;
#176 = EDGE_LOOP ( 'NONE', ( #43, #279, #249, #199 ) ) ;
#177 = CIRCLE ( 'NONE', #223, 10.00000000000000000 ) ;
#178 = LINE ( 'NONE', #77, #295 ) ;
#179 = DIRECTION ( 'NONE',  ( -1.000000000000000000, -0.000000000000000000, -0.000000000000000000 ) ) ;
#180 = EDGE_CURVE ( 'NONE', #228, #224, #225, .T. ) ;
#181 = CARTESIAN_POINT ( 'NONE',  ( 3.000000000000000000, 0.000000000000000000, 0.000000000000000000 ) ) ;
#182 = CC_DESIGN_DATE_AND_TIME_ASSIGNMENT ( #321, #68, ( #247 ) ) ;
#183 = PRODUCT_DEFINITION_FORMATION_WITH_SPECIFIED_SOURCE ( 'ANY', '', #70, .NOT_KNOWN. ) ;
#184 = DIRECTION ( 'NONE',  ( -1.000000000000000000, -0.000000000000000000, -0.000000000000000000 ) ) ;
#185 = DESIGN_CONTEXT ( 'detailed design', #21, 'design' ) ;
#186 = DIRECTION ( 'NONE',  ( 0.000000000000000000, 0.000000000000000000, 1.000000000000000000 ) ) ;
#187 = DIRECTION ( 'NONE',  ( -1.000000000000000000, -0.000000000000000000, -0.000000000000000000 ) ) ;
#188 = UNCERTAINTY_MEASURE_WITH_UNIT (LENGTH_MEASURE( 1.000000000000000082E-05 ), #273, 'distance_accuracy_value', 'NONE');
#189 = ADVANCED_FACE ( 'NONE', ( #262 ), #307, .F. ) ;
#190 = FACE_BOUND ( 'NONE', #306, .T. ) ;
#191 = CARTESIAN_POINT ( 'NONE',  ( -1.614212418857619014, 0.000000000000000000, 0.000000000000000000 ) ) ;
#192 = EDGE_CURVE ( 'NONE', #329, #228, #32, .T. ) ;
#193 = CARTESIAN_POINT ( 'NONE',  ( -1.614212418857619014, 1.224646799147353256E-15, -10.00000000000000000 ) ) ;
#194 = DATE_AND_TIME ( #97, #90 ) ;
#195 = VERTEX_POINT ( 'NONE', #59 ) ;
#196 = DIRECTION ( 'NONE',  ( 1.000000000000000000, 0.000000000000000000, 0.000000000000000000 ) ) ;
#197 = EDGE_LOOP ( 'NONE', ( #298, #250 ) ) ;
#198 = APPLICATION_PROTOCOL_DEFINITION ( 'international standard', 'config_control_design', 1994, #21 ) ;
#199 = ORIENTED_EDGE ( 'NONE', *, *, #287, .T. ) ;
#200 = MECHANICAL_CONTEXT ( 'NONE', #283, 'mechanical' ) ;
#201 = ORIENTED_EDGE ( 'NONE', *, *, #180, .T. ) ;
#202 = PERSON_AND_ORGANIZATION ( #127, #260 ) ;
#203 = ORIENTED_EDGE ( 'NONE', *, *, #86, .T. ) ;
#204 = CC_DESIGN_PERSON_AND_ORGANIZATION_ASSIGNMENT ( #144, #64, ( #183 ) ) ;
#205 = DIRECTION ( 'NONE',  ( -1.000000000000000000, -0.000000000000000000, -0.000000000000000000 ) ) ;
#206 = CARTESIAN_POINT ( 'NONE',  ( -1.614212418857619014, 1.555301434917138433E-15, -12.69999999999999929 ) ) ;
#207 = CIRCLE ( 'NONE', #134, 12.69999999999999929 ) ;
#208 = LINE ( 'NONE', #124, #74 ) ;
#209 = EDGE_CURVE ( 'NONE', #254, #329, #177, .T. ) ;
#210 = CARTESIAN_POINT ( 'NONE',  ( 3.000000000000000000, 0.000000000000000000, 12.69999999999999929 ) ) ;
#211 = AXIS2_PLACEMENT_3D ( 'NONE', #135, #82, #186 ) ;
#212 = LINE ( 'NONE', #206, #123 ) ;
#213 = ADVANCED_FACE ( 'NONE', ( #317 ), #293, .T. ) ;
#214 = VECTOR ( 'NONE', #241, 1000.000000000000000 ) ;
#215 = DIRECTION ( 'NONE',  ( -1.000000000000000000, -0.000000000000000000, -0.000000000000000000 ) ) ;
#216 = CARTESIAN_POINT ( 'NONE',  ( 2.999999999999999112, 0.000000000000000000, 10.00000000000000000 ) ) ;
#217 = CARTESIAN_POINT ( 'NONE',  ( 2.500000000000000888, 1.224646799147353256E-15, -10.00000000000000000 ) ) ;
#218 = DIRECTION ( 'NONE',  ( 1.000000000000000000, 0.000000000000000000, 0.000000000000000000 ) ) ;
#219 = EDGE_CURVE ( 'NONE', #115, #169, #116, .T. ) ;
#220 = AXIS2_PLACEMENT_3D ( 'NONE', #318, #31, #316 ) ;
#221 = ORIENTED_EDGE ( 'NONE', *, *, #320, .F. ) ;
#222 = CALENDAR_DATE ( 2020, 22, 12 ) ;
#223 = AXIS2_PLACEMENT_3D ( 'NONE', #105, #85, #8 ) ;
#224 = VERTEX_POINT ( 'NONE', #294 ) ;
#225 = CIRCLE ( 'NONE', #2, 10.00000000000000000 ) ;
#226 = PERSON_AND_ORGANIZATION ( #127, #260 ) ;
#227 = EDGE_CURVE ( 'NONE', #67, #11, #290, .T. ) ;
#228 = VERTEX_POINT ( 'NONE', #217 ) ;
#229 = ORIENTED_EDGE ( 'NONE', *, *, #192, .T. ) ;
#230 = AXIS2_PLACEMENT_3D ( 'NONE', #133, #107, #56 ) ;
#231 = APPLICATION_PROTOCOL_DEFINITION ( 'international standard', 'config_control_design', 1994, #283 ) ;
#232 = ORIENTED_EDGE ( 'NONE', *, *, #227, .F. ) ;
#233 = ADVANCED_FACE ( 'NONE', ( #243 ), #163, .F. ) ;
#234 = CARTESIAN_POINT ( 'NONE',  ( -3.000000000000000000, 1.555301434917138433E-15, -12.69999999999999929 ) ) ;
#235 = CARTESIAN_POINT ( 'NONE',  ( 3.000000000000000000, 0.000000000000000000, 0.000000000000000000 ) ) ;
#236 = CARTESIAN_POINT ( 'NONE',  ( -3.000000000000000000, 10.00000000000000000, 0.000000000000000000 ) ) ;
#237 = DIRECTION ( 'NONE',  ( -1.000000000000000000, -0.000000000000000000, -0.000000000000000000 ) ) ;
#238 = ADVANCED_FACE ( 'NONE', ( #264 ), #83, .T. ) ;
#239 = CARTESIAN_POINT ( 'NONE',  ( -2.500000000000000444, 0.000000000000000000, 0.000000000000000000 ) ) ;
#240 = CIRCLE ( 'NONE', #324, 10.00000000000000000 ) ;
#241 = DIRECTION ( 'NONE',  ( -1.000000000000000000, -0.000000000000000000, -0.000000000000000000 ) ) ;
#242 = APPROVAL_PERSON_ORGANIZATION ( #304, #132, #35 ) ;
#243 = FACE_OUTER_BOUND ( 'NONE', #197, .T. ) ;
#244 = CARTESIAN_POINT ( 'NONE',  ( -2.500000000000000444, 0.000000000000000000, 10.00000000000000000 ) ) ;
#245 = LINE ( 'NONE', #7, #214 ) ;
#246 = DIRECTION ( 'NONE',  ( 0.000000000000000000, 0.000000000000000000, 1.000000000000000000 ) ) ;
#247 = PRODUCT_DEFINITION ( 'UNKNOWN', '', #183, #185 ) ;
#248 = CALENDAR_DATE ( 2020, 22, 12 ) ;
#249 = ORIENTED_EDGE ( 'NONE', *, *, #263, .T. ) ;
#250 = ORIENTED_EDGE ( 'NONE', *, *, #180, .F. ) ;
#251 = MANIFOLD_SOLID_BREP ( 'Ðý×', #34 ) ;
#252 = CIRCLE ( 'NONE', #20, 10.00000000000000000 ) ;
#253 = COORDINATED_UNIVERSAL_TIME_OFFSET ( 8, 0, .AHEAD. ) ;
#254 = VERTEX_POINT ( 'NONE', #216 ) ;
#255 = PERSON_AND_ORGANIZATION_ROLE ( 'creator' ) ;
#256 = ORIENTED_EDGE ( 'NONE', *, *, #173, .F. ) ;
#257 = ORIENTED_EDGE ( 'NONE', *, *, #18, .T. ) ;
#258 = DIRECTION ( 'NONE',  ( 0.000000000000000000, 0.000000000000000000, 1.000000000000000000 ) ) ;
#259 = FACE_OUTER_BOUND ( 'NONE', #297, .T. ) ;
#260 = ORGANIZATION ( 'UNSPECIFIED', 'UNSPECIFIED', '' ) ;
#261 = CARTESIAN_POINT ( 'NONE',  ( 2.500000000000000888, 0.000000000000000000, 0.000000000000000000 ) ) ;
#262 = FACE_OUTER_BOUND ( 'NONE', #323, .T. ) ;
#263 = EDGE_CURVE ( 'NONE', #254, #224, #136, .T. ) ;
#264 = FACE_OUTER_BOUND ( 'NONE', #272, .T. ) ;
#265 = CARTESIAN_POINT ( 'NONE',  ( -2.500000000000000444, 10.00000000000000000, 0.000000000000000000 ) ) ;
#266 = DIRECTION ( 'NONE',  ( 0.000000000000000000, 0.000000000000000000, 1.000000000000000000 ) ) ;
#267 = DIRECTION ( 'NONE',  ( -1.000000000000000000, -0.000000000000000000, -0.000000000000000000 ) ) ;
#268 = CALENDAR_DATE ( 2020, 22, 12 ) ;
#269 = AXIS2_PLACEMENT_3D ( 'NONE', #235, #130, #280 ) ;
#270 = ADVANCED_FACE ( 'NONE', ( #4 ), #27, .F. ) ;
#271 = COORDINATED_UNIVERSAL_TIME_OFFSET ( 8, 0, .AHEAD. ) ;
#272 = EDGE_LOOP ( 'NONE', ( #143, #89, #175, #92 ) ) ;
#273 =( LENGTH_UNIT ( ) NAMED_UNIT ( * ) SI_UNIT ( .MILLI., .METRE. ) );
#274 = VERTEX_POINT ( 'NONE', #244 ) ;
#275 = DATE_AND_TIME ( #277, #46 ) ;
#276 = ORIENTED_EDGE ( 'NONE', *, *, #219, .T. ) ;
#277 = CALENDAR_DATE ( 2020, 22, 12 ) ;
#278 = ORIENTED_EDGE ( 'NONE', *, *, #36, .F. ) ;
#279 = ORIENTED_EDGE ( 'NONE', *, *, #209, .F. ) ;
#280 = DIRECTION ( 'NONE',  ( 0.000000000000000000, 0.000000000000000000, 1.000000000000000000 ) ) ;
#281 = CIRCLE ( 'NONE', #13, 10.00000000000000000 ) ;
#282 = CYLINDRICAL_SURFACE ( 'NONE', #314, 10.00000000000000000 ) ;
#283 = APPLICATION_CONTEXT ( 'configuration controlled 3d designs of mechanical parts and assemblies' ) ;
#284 = DIRECTION ( 'NONE',  ( -1.000000000000000000, -0.000000000000000000, -0.000000000000000000 ) ) ;
#285 = DIRECTION ( 'NONE',  ( -1.000000000000000000, -0.000000000000000000, -0.000000000000000000 ) ) ;
#286 = AXIS2_PLACEMENT_3D ( 'NONE', #162, #218, #131 ) ;
#287 = EDGE_CURVE ( 'NONE', #224, #228, #240, .T. ) ;
#288 = CYLINDRICAL_SURFACE ( 'NONE', #29, 10.00000000000000000 ) ;
#289 = DIRECTION ( 'NONE',  ( -1.000000000000000000, -0.000000000000000000, -0.000000000000000000 ) ) ;
#290 = CIRCLE ( 'NONE', #154, 12.69999999999999929 ) ;
#291 = FACE_OUTER_BOUND ( 'NONE', #121, .T. ) ;
#292 = DIRECTION ( 'NONE',  ( 0.000000000000000000, 0.000000000000000000, 1.000000000000000000 ) ) ;
#293 = CYLINDRICAL_SURFACE ( 'NONE', #308, 12.69999999999999929 ) ;
#294 = CARTESIAN_POINT ( 'NONE',  ( 2.500000000000000888, 0.000000000000000000, 10.00000000000000000 ) ) ;
#295 = VECTOR ( 'NONE', #73, 1000.000000000000000 ) ;
#296 =( GEOMETRIC_REPRESENTATION_CONTEXT ( 3 ) GLOBAL_UNCERTAINTY_ASSIGNED_CONTEXT ( ( #188 ) ) GLOBAL_UNIT_ASSIGNED_CONTEXT ( ( #273, #39, #117 ) ) REPRESENTATION_CONTEXT ( 'NONE', 'WORKASPACE' ) );
#297 = EDGE_LOOP ( 'NONE', ( #302, #14, #147, #96 ) ) ;
#298 = ORIENTED_EDGE ( 'NONE', *, *, #287, .F. ) ;
#299 = PERSON_AND_ORGANIZATION ( #127, #260 ) ;
#300 = ORIENTED_EDGE ( 'NONE', *, *, #26, .F. ) ;
#301 = PERSON_AND_ORGANIZATION_ROLE ( 'creator' ) ;
#302 = ORIENTED_EDGE ( 'NONE', *, *, #51, .T. ) ;
#303 = ADVANCED_FACE ( 'NONE', ( #291, #190 ), #137, .F. ) ;
#304 = PERSON_AND_ORGANIZATION ( #127, #260 ) ;
#305 = PRODUCT_DEFINITION_SHAPE ( 'NONE', 'NONE',  #247 ) ;
#306 = EDGE_LOOP ( 'NONE', ( #98, #257 ) ) ;
#307 = PLANE ( 'NONE',  #57 ) ;
#308 = AXIS2_PLACEMENT_3D ( 'NONE', #191, #215, #246 ) ;
#309 = DIRECTION ( 'NONE',  ( -1.000000000000000000, -0.000000000000000000, -0.000000000000000000 ) ) ;
#310 = VECTOR ( 'NONE', #187, 1000.000000000000000 ) ;
#311 = EDGE_CURVE ( 'NONE', #169, #115, #164, .T. ) ;
#312 = CARTESIAN_POINT ( 'NONE',  ( -3.000000000000000000, 0.000000000000000000, 0.000000000000000000 ) ) ;
#313 = AXIS2_PLACEMENT_3D ( 'NONE', #87, #159, #266 ) ;
#314 = AXIS2_PLACEMENT_3D ( 'NONE', #50, #284, #78 ) ;
#315 = CC_DESIGN_PERSON_AND_ORGANIZATION_ASSIGNMENT ( #88, #301, ( #247 ) ) ;
#316 = DIRECTION ( 'NONE',  ( -0.000000000000000000, 0.000000000000000000, 1.000000000000000000 ) ) ;
#317 = FACE_OUTER_BOUND ( 'NONE', #15, .T. ) ;
#318 = CARTESIAN_POINT ( 'NONE',  ( 2.500000000000000444, 10.00000000000000000, 0.000000000000000000 ) ) ;
#319 = DIRECTION ( 'NONE',  ( 0.000000000000000000, 0.000000000000000000, -1.000000000000000000 ) ) ;
#320 = EDGE_CURVE ( 'NONE', #40, #274, #106, .T. ) ;
#321 = DATE_AND_TIME ( #222, #156 ) ;
#322 = CARTESIAN_POINT ( 'NONE',  ( 0.000000000000000000, 0.000000000000000000, 0.000000000000000000 ) ) ;
#323 = EDGE_LOOP ( 'NONE', ( #145, #221 ) ) ;
#324 = AXIS2_PLACEMENT_3D ( 'NONE', #54, #267, #84 ) ;
#325 = ORIENTED_EDGE ( 'NONE', *, *, #112, .T. ) ;
#326 = EDGE_CURVE ( 'NONE', #40, #169, #245, .T. ) ;
#327 = PERSON_AND_ORGANIZATION_ROLE ( 'classification_officer' ) ;
#328 = CC_DESIGN_APPROVAL ( #41, ( #247 ) ) ;
#329 = VERTEX_POINT ( 'NONE', #110 ) ;
#330 = SHAPE_DEFINITION_REPRESENTATION ( #305, #76 ) ;
#331 = CARTESIAN_POINT ( 'NONE',  ( -2.500000000000000444, 1.224646799147353256E-15, -10.00000000000000000 ) ) ;
#332 = DIRECTION ( 'NONE',  ( 1.000000000000000000, 0.000000000000000000, 0.000000000000000000 ) ) ;
#333 = LOCAL_TIME ( 17, 9, 6.000000000000000000, #271 ) ;
#334 = CARTESIAN_POINT ( 'NONE',  ( -3.000000000000000444, 1.224646799147353256E-15, -10.00000000000000000 ) ) ;
#335 = DIRECTION ( 'NONE',  ( 0.000000000000000000, 0.000000000000000000, -1.000000000000000000 ) ) ;
ENDSEC;
END-ISO-10303-21;
